  0
SECTION
  2
HEADER
  9
$ACADVER
  1
AC1015
  9
$ACADMAINTVER
 70
     6
  9
$DWGCODEPAGE
  3
ANSI_1254
  9
$INSBASE
 10
0.0
 20
0.0
 30
0.0
  9
$EXTMIN
 10
0.0
 20
0.0
 30
0.0
  9
$EXTMAX
 10
279.4
 20
215.9
 30
0.0
  9
$LIMMIN
 10
0.0
 20
0.0
  9
$LIMMAX
 10
279.4
 20
215.9
  9
$ORTHOMODE
 70
     0
  9
$REGENMODE
 70
     1
  9
$FILLMODE
 70
     1
  9
$QTEXTMODE
 70
     0
  9
$MIRRTEXT
 70
     1
  9
$LTSCALE
 40
1.0
  9
$ATTMODE
 70
     1
  9
$TEXTSIZE
 40
3.5
  9
$TRACEWID
 40
1.0
  9
$TEXTSTYLE
  7
Standard
  9
$CLAYER
  8
0
  9
$CELTYPE
  6
ByLayer
  9
$CECOLOR
 62
   256
  9
$CELTSCALE
 40
1.0
  9
$DISPSILH
 70
     0
  9
$DIMSCALE
 40
1.0
  9
$DIMASZ
 40
3.5
  9
$DIMEXO
 40
1.0
  9
$DIMDLI
 40
3.75
  9
$DIMRND
 40
0.0
  9
$DIMDLE
 40
0.0
  9
$DIMEXE
 40
1.0
  9
$DIMTP
 40
0.0
  9
$DIMTM
 40
0.0
  9
$DIMTXT
 40
3.5
  9
$DIMCEN
 40
2.5
  9
$DIMTSZ
 40
0.0
  9
$DIMTOL
 70
     0
  9
$DIMLIM
 70
     0
  9
$DIMTIH
 70
     1
  9
$DIMTOH
 70
     1
  9
$DIMSE1
 70
     0
  9
$DIMSE2
 70
     0
  9
$DIMTAD
 70
     1
  9
$DIMZIN
 70
     0
  9
$DIMBLK
  1

  9
$DIMASO
 70
     1
  9
$DIMSHO
 70
     1
  9
$DIMPOST
  1

  9
$DIMAPOST
  1

  9
$DIMALT
 70
     0
  9
$DIMALTD
 70
     3
  9
$DIMALTF
 40
0.0393700787
  9
$DIMLFAC
 40
1.0
  9
$DIMTOFL
 70
     1
  9
$DIMTVP
 40
0.0
  9
$DIMTIX
 70
     0
  9
$DIMSOXD
 70
     0
  9
$DIMSAH
 70
     0
  9
$DIMBLK1
  1

  9
$DIMBLK2
  1

  9
$DIMSTYLE
  2
ISO-25
  9
$DIMCLRD
 70
     0
  9
$DIMCLRE
 70
     0
  9
$DIMCLRT
 70
     0
  9
$DIMTFAC
 40
1.0
  9
$DIMGAP
 40
1.524
  9
$DIMJUST
 70
     0
  9
$DIMSD1
 70
     0
  9
$DIMSD2
 70
     0
  9
$DIMTOLJ
 70
     0
  9
$DIMTZIN
 70
     0
  9
$DIMALTZ
 70
     0
  9
$DIMALTTZ
 70
     0
  9
$DIMUPT
 70
     0
  9
$DIMDEC
 70
     2
  9
$DIMTDEC
 70
     2
  9
$DIMALTU
 70
     2
  9
$DIMALTTD
 70
     3
  9
$DIMTXSTY
  7
Standard
  9
$DIMAUNIT
 70
     0
  9
$DIMADEC
 70
     2
  9
$DIMALTRND
 40
0.0
  9
$DIMAZIN
 70
     0
  9
$DIMDSEP
 70
    44
  9
$DIMATFIT
 70
     3
  9
$DIMFRAC
 70
     0
  9
$DIMLDRBLK
  1

  9
$DIMLUNIT
 70
     2
  9
$DIMLWD
 70
    -2
  9
$DIMLWE
 70
    -2
  9
$DIMTMOVE
 70
     0
  9
$LUNITS
 70
     2
  9
$LUPREC
 70
     2
  9
$SKETCHINC
 40
1.0
  9
$FILLETRAD
 40
10.0
  9
$AUNITS
 70
     0
  9
$AUPREC
 70
     2
  9
$MENU
  1
.
  9
$ELEVATION
 40
0.0
  9
$PELEVATION
 40
0.0
  9
$THICKNESS
 40
0.0
  9
$LIMCHECK
 70
     0
  9
$CHAMFERA
 40
0.0
  9
$CHAMFERB
 40
0.0
  9
$CHAMFERC
 40
0.0
  9
$CHAMFERD
 40
0.0
  9
$SKPOLY
 70
     0
  9
$TDCREATE
 40
2459935.70055588
  9
$TDUCREATE
 40
2459935.57555588
  9
$TDUPDATE
 40
2459935.700556065
  9
$TDUUPDATE
 40
2459935.575556065
  9
$TDINDWG
 40
0.0000000116
  9
$TDUSRTIMER
 40
0.0000000116
  9
$USRTIMER
 70
     1
  9
$ANGBASE
 50
0.0
  9
$ANGDIR
 70
     0
  9
$PDMODE
 70
     0
  9
$PDSIZE
 40
-1.0
  9
$PLINEWID
 40
0.0
  9
$SPLFRAME
 70
     0
  9
$SPLINETYPE
 70
     6
  9
$SPLINESEGS
 70
     8
  9
$HANDSEED
  5
D2
  9
$SURFTAB1
 70
     6
  9
$SURFTAB2
 70
     6
  9
$SURFTYPE
 70
     6
  9
$SURFU
 70
     6
  9
$SURFV
 70
     6
  9
$UCSBASE
  2

  9
$UCSNAME
  2

  9
$UCSORG
 10
0.0
 20
0.0
 30
0.0
  9
$UCSXDIR
 10
1.0
 20
0.0
 30
0.0
  9
$UCSYDIR
 10
0.0
 20
1.0
 30
0.0
  9
$UCSORTHOREF
  2

  9
$UCSORTHOVIEW
 70
     0
  9
$UCSORGTOP
 10
0.0
 20
0.0
 30
0.0
  9
$UCSORGBOTTOM
 10
0.0
 20
0.0
 30
0.0
  9
$UCSORGLEFT
 10
0.0
 20
0.0
 30
0.0
  9
$UCSORGRIGHT
 10
0.0
 20
0.0
 30
0.0
  9
$UCSORGFRONT
 10
0.0
 20
0.0
 30
0.0
  9
$UCSORGBACK
 10
0.0
 20
0.0
 30
0.0
  9
$PUCSBASE
  2

  9
$PUCSNAME
  2

  9
$PUCSORG
 10
0.0
 20
0.0
 30
0.0
  9
$PUCSXDIR
 10
1.0
 20
0.0
 30
0.0
  9
$PUCSYDIR
 10
0.0
 20
1.0
 30
0.0
  9
$PUCSORTHOREF
  2

  9
$PUCSORTHOVIEW
 70
     0
  9
$PUCSORGTOP
 10
0.0
 20
0.0
 30
0.0
  9
$PUCSORGBOTTOM
 10
0.0
 20
0.0
 30
0.0
  9
$PUCSORGLEFT
 10
0.0
 20
0.0
 30
0.0
  9
$PUCSORGRIGHT
 10
0.0
 20
0.0
 30
0.0
  9
$PUCSORGFRONT
 10
0.0
 20
0.0
 30
0.0
  9
$PUCSORGBACK
 10
0.0
 20
0.0
 30
0.0
  9
$USERI1
 70
     0
  9
$USERI2
 70
     0
  9
$USERI3
 70
     0
  9
$USERI4
 70
     0
  9
$USERI5
 70
     0
  9
$USERR1
 40
0.0
  9
$USERR2
 40
0.0
  9
$USERR3
 40
0.0
  9
$USERR4
 40
0.0
  9
$USERR5
 40
0.0
  9
$WORLDVIEW
 70
     1
  9
$SHADEDGE
 70
     3
  9
$SHADEDIF
 70
    70
  9
$TILEMODE
 70
     1
  9
$MAXACTVP
 70
    64
  9
$PINSBASE
 10
0.0
 20
0.0
 30
0.0
  9
$PLIMCHECK
 70
     0
  9
$PEXTMIN
 10
1.0000000000E+20
 20
1.0000000000E+20
 30
1.0000000000E+20
  9
$PEXTMAX
 10
-1.0000000000E+20
 20
-1.0000000000E+20
 30
-1.0000000000E+20
  9
$PLIMMIN
 10
0.0
 20
0.0
  9
$PLIMMAX
 10
420.0
 20
297.0
  9
$UNITMODE
 70
     0
  9
$VISRETAIN
 70
     1
  9
$PLINEGEN
 70
     0
  9
$PSLTSCALE
 70
     1
  9
$TREEDEPTH
 70
  3020
  9
$CMLSTYLE
  2
Standard
  9
$CMLJUST
 70
     0
  9
$CMLSCALE
 40
20.0
  9
$PROXYGRAPHICS
 70
     1
  9
$MEASUREMENT
 70
     1
  9
$CELWEIGHT
370
    -1
  9
$ENDCAPS
280
     0
  9
$JOINSTYLE
280
     0
  9
$LWDISPLAY
290
     1
  9
$INSUNITS
 70
     4
  9
$HYPERLINKBASE
  1

  9
$STYLESHEET
  1

  9
$XEDIT
290
     1
  9
$CEPSNTYPE
380
     0
  9
$PSTYLEMODE
290
     1
  9
$FINGERPRINTGUID
  2
{934ef7ca-127e-40bf-91c9-1474988bf63b}
  9
$VERSIONGUID
  2
{FAEB1C32-E019-11D5-929B-00C0DF256EC4}
  9
$EXTNAMES
290
     1
  9
$PSVPSCALE
 40
0.0
  9
$OLESTARTUP
290
     0
  0
ENDSEC
  0
SECTION
  2
CLASSES
  0
CLASS
  1
ACDBDICTIONARYWDFLT
  2
AcDbDictionaryWithDefault
  3
ObjectDBX Classes
 90
        0
280
     0
281
     0
  0
CLASS
  1
VISUALSTYLE
  2
AcDbVisualStyle
  3
ObjectDBX Classes
 90
     4095
280
     0
281
     0
  0
CLASS
  1
MATERIAL
  2
AcDbMaterial
  3
ObjectDBX Classes
 90
     1153
280
     0
281
     0
  0
CLASS
  1
SCALE
  2
AcDbScale
  3
ObjectDBX Classes
 90
     1153
280
     0
281
     0
  0
CLASS
  1
TABLESTYLE
  2
AcDbTableStyle
  3
ObjectDBX Classes
 90
     4095
280
     0
281
     0
  0
CLASS
  1
MLEADERSTYLE
  2
AcDbMLeaderStyle
  3
ACDB_MLEADERSTYLE_CLASS
 90
     4095
280
     0
281
     0
  0
CLASS
  1
SUN
  2
AcDbSun
  3
SCENEOE
 90
     1153
280
     0
281
     0
  0
CLASS
  1
ACDBPLACEHOLDER
  2
AcDbPlaceHolder
  3
ObjectDBX Classes
 90
        0
280
     0
281
     0
  0
CLASS
  1
LAYOUT
  2
AcDbLayout
  3
ObjectDBX Classes
 90
        0
280
     0
281
     0
  0
ENDSEC
  0
SECTION
  2
TABLES
  0
TABLE
  2
VPORT
  5
8
330
0
100
AcDbSymbolTable
 70
     1
  0
VPORT
  5
29
330
8
100
AcDbSymbolTableRecord
100
AcDbViewportTableRecord
  2
*Active
 70
     0
 10
0.0
 20
0.0
 11
1.0
 21
1.0
 12
139.7
 22
107.95
 13
0.0
 23
0.0
 14
10.0
 24
10.0
 15
10.0
 25
10.0
 16
0.0
 26
0.0
 36
1.0
 17
0.0
 27
0.0
 37
0.0
 40
215.9
 41
1.2941176471
 42
50.0
 43
0.0
 44
0.0
 50
0.0
 51
0.0
 71
     0
 72
  2000
 73
     1
 74
     3
 75
     0
 76
     0
 77
     0
 78
     0
281
     0
 65
     1
110
0.0
120
0.0
130
0.0
111
1.0
121
0.0
131
0.0
112
0.0
122
1.0
132
0.0
 79
     0
146
0.0
  0
ENDTAB
  0
TABLE
  2
LTYPE
  5
5
330
0
100
AcDbSymbolTable
 70
     6
  0
LTYPE
  5
14
330
5
100
AcDbSymbolTableRecord
100
AcDbLinetypeTableRecord
  2
ByBlock
 70
     0
  3

 72
    65
 73
     0
 40
0.0
  0
LTYPE
  5
15
330
5
100
AcDbSymbolTableRecord
100
AcDbLinetypeTableRecord
  2
ByLayer
 70
     0
  3

 72
    65
 73
     0
 40
0.0
  0
LTYPE
  5
16
330
5
100
AcDbSymbolTableRecord
100
AcDbLinetypeTableRecord
  2
Continuous
 70
     0
  3
Solid line
 72
    65
 73
     0
 40
0.0
  0
LTYPE
  5
6E
330
5
100
AcDbSymbolTableRecord
100
AcDbLinetypeTableRecord
  2
HIDDEN
 70
     0
  3
Hidden __ __ __ __ __ __ __ __ __ __ __ __ __ __
 72
    65
 73
     2
 40
1.905
 49
1.27
 74
     0
 49
-0.635
 74
     0
  0
LTYPE
  5
6F
330
5
100
AcDbSymbolTableRecord
100
AcDbLinetypeTableRecord
  2
PHANTOM
 70
     0
  3
Phantom ______  __  __  ______  __  __  ______
 72
    65
 73
     6
 40
12.7
 49
6.35
 74
     0
 49
-1.27
 74
     0
 49
1.27
 74
     0
 49
-1.27
 74
     0
 49
1.27
 74
     0
 49
-1.27
 74
     0
  0
LTYPE
  5
70
330
5
100
AcDbSymbolTableRecord
100
AcDbLinetypeTableRecord
  2
CENTER
 70
     0
  3
Center ____ _ ____ _ ____ _ ____ _ ____ _ ____
 72
    65
 73
     4
 40
10.16
 49
6.35
 74
     0
 49
-1.27
 74
     0
 49
1.27
 74
     0
 49
-1.27
 74
     0
  0
LTYPE
  5
71
330
5
100
AcDbSymbolTableRecord
100
AcDbLinetypeTableRecord
  2
CENTERX2
 70
     0
  3
Center (2x) ________  __  ________  __  _____
 72
    65
 73
     4
 40
20.32
 49
12.7
 74
     0
 49
-2.54
 74
     0
 49
2.54
 74
     0
 49
-2.54
 74
     0
  0
LTYPE
  5
72
330
5
100
AcDbSymbolTableRecord
100
AcDbLinetypeTableRecord
  2
DOT2
 70
     0
  3
Dot (.5x) ........................................
 72
    65
 73
     2
 40
0.635
 49
0.0
 74
     0
 49
-0.635
 74
     0
  0
ENDTAB
  0
TABLE
  2
LAYER
  5
2
330
0
100
AcDbSymbolTable
 70
    17
  0
LAYER
  5
10
330
2
100
AcDbSymbolTableRecord
100
AcDbLayerTableRecord
  2
0
 70
     0
 62
     7
  6
Continuous
370
    -3
390
F
  0
LAYER
  5
73
330
2
100
AcDbSymbolTableRecord
100
AcDbLayerTableRecord
  2
FORMAT
 70
     0
 62
     7
  6
Continuous
370
    -3
390
F
  0
LAYER
  5
74
330
2
100
AcDbSymbolTableRecord
100
AcDbLayerTableRecord
  2
YARDIMCI_GEOMETRI
 70
     0
 62
    -6
  6
Continuous
290
     0
370
    -3
390
F
  0
LAYER
  5
75
330
2
100
AcDbSymbolTableRecord
100
AcDbLayerTableRecord
  2
SAYFA_CERCEVESI
 70
     0
 62
     7
  6
Continuous
370
    25
390
F
  0
LAYER
  5
76
330
2
100
AcDbSymbolTableRecord
100
AcDbLayerTableRecord
  2
ANTET
 70
     0
 62
     7
  6
Continuous
370
    -3
390
F
  0
LAYER
  5
77
330
2
100
AcDbSymbolTableRecord
100
AcDbLayerTableRecord
  2
OLCU
 70
     0
 62
   150
  6
Continuous
370
    -3
390
F
  0
LAYER
  5
78
330
2
100
AcDbSymbolTableRecord
100
AcDbLayerTableRecord
  2
METIN
 70
     0
 62
    96
  6
Continuous
370
    -3
390
F
  0
LAYER
  5
79
330
2
100
AcDbSymbolTableRecord
100
AcDbLayerTableRecord
  2
BALON
 70
     0
 62
     5
  6
Continuous
370
    -3
390
F
  0
LAYER
  5
7A
330
2
100
AcDbSymbolTableRecord
100
AcDbLayerTableRecord
  2
VURGU
 70
     0
 62
     7
  6
Continuous
370
    -3
390
F
  0
LAYER
  5
7B
330
2
100
AcDbSymbolTableRecord
100
AcDbLayerTableRecord
  2
SILIK
 70
     0
 62
     7
  6
Continuous
370
    -3
390
F
  0
LAYER
  5
7C
330
2
100
AcDbSymbolTableRecord
100
AcDbLayerTableRecord
  2
MODEL
 70
     0
 62
     7
  6
Continuous
370
    -3
390
F
  0
LAYER
  5
7D
330
2
100
AcDbSymbolTableRecord
100
AcDbLayerTableRecord
  2
DETAYLANDıRMA
 70
     0
 62
   190
  6
Continuous
370
    -3
390
F
  0
LAYER
  5
7E
330
2
100
AcDbSymbolTableRecord
100
AcDbLayerTableRecord
  2
TOLERANS
 70
     0
 62
   230
  6
Continuous
370
    -3
390
F
  0
LAYER
  5
7F
330
2
100
AcDbSymbolTableRecord
100
AcDbLayerTableRecord
  2
MERKEZ_CIZGILERI
 70
     0
 62
    30
  6
Continuous
370
    -3
390
F
  0
LAYER
  5
80
330
2
100
AcDbSymbolTableRecord
100
AcDbLayerTableRecord
  2
KESIT-DETAY_CIZGILERI
 70
     0
 62
     7
  6
Continuous
370
    -3
390
F
  0
LAYER
  5
81
330
2
100
AcDbSymbolTableRecord
100
AcDbLayerTableRecord
  2
\U+041E\U+0421\U+0415\U+0412\U+042B\U+0415
 70
     0
 62
     7
  6
Continuous
370
    -3
390
F
  0
LAYER
  5
82
330
2
100
AcDbSymbolTableRecord
100
AcDbLayerTableRecord
  2
\U+0412\U+041E\U+0414\U+042F\U+041D\U+042B\U+0415_\U+0417\U+041D\U+0410\U+041A\U+0418
 70
     0
 62
    11
  6
Continuous
370
    -3
390
F
  0
ENDTAB
  0
TABLE
  2
STYLE
  5
3
330
0
100
AcDbSymbolTable
 70
     1
  0
STYLE
  5
11
330
3
100
AcDbSymbolTableRecord
100
AcDbTextStyleTableRecord
  2
Standard
 70
     0
 40
0.0
 41
1.0
 50
0.0
 71
     0
 42
3.5
  3
txt
  4

  0
ENDTAB
  0
TABLE
  2
VIEW
  5
6
330
0
100
AcDbSymbolTable
 70
     0
  0
ENDTAB
  0
TABLE
  2
UCS
  5
7
330
0
100
AcDbSymbolTable
 70
     0
  0
ENDTAB
  0
TABLE
  2
APPID
  5
9
330
0
100
AcDbSymbolTable
 70
     1
  0
APPID
  5
12
330
9
100
AcDbSymbolTableRecord
100
AcDbRegAppTableRecord
  2
ACAD
 70
     0
  0
ENDTAB
  0
TABLE
  2
DIMSTYLE
  5
A
330
0
100
AcDbSymbolTable
 70
     1
100
AcDbDimStyleTable
  0
DIMSTYLE
105
27
330
A
100
AcDbSymbolTableRecord
100
AcDbDimStyleTableRecord
  2
ISO-25
 70
     0
 41
2.5
 42
0.625
 43
3.75
 44
1.25
 73
     0
 74
     0
 77
     1
 78
     8
140
2.5
141
2.5
143
0.0393700787
147
0.625
171
     3
172
     1
178
     0
271
     2
272
     2
274
     3
278
    44
283
     0
284
     8
340
11
  0
ENDTAB
  0
TABLE
  2
BLOCK_RECORD
  5
1
330
0
100
AcDbSymbolTable
 70
     3
  0
BLOCK_RECORD
  5
1F
330
1
100
AcDbSymbolTableRecord
100
AcDbBlockTableRecord
  2
*Model_Space
340
22
  0
BLOCK_RECORD
  5
1B
330
1
100
AcDbSymbolTableRecord
100
AcDbBlockTableRecord
  2
*Paper_Space
340
1E
  0
BLOCK_RECORD
  5
23
330
1
100
AcDbSymbolTableRecord
100
AcDbBlockTableRecord
  2
*Paper_Space0
340
26
  0
BLOCK_RECORD
  5
88
330
1
100
AcDbSymbolTableRecord
100
AcDbBlockTableRecord
  2
SW_CENTERMARKSYMBOL_0
340
0
102
{BLKREFS
331
93
102
}
  0
BLOCK_RECORD
  5
BB
330
1
100
AcDbSymbolTableRecord
100
AcDbBlockTableRecord
  2
SW_CENTERMARKSYMBOL_1
340
0
102
{BLKREFS
331
C6
102
}
  0
ENDTAB
  0
ENDSEC
  0
SECTION
  2
BLOCKS
  0
BLOCK
  5
20
330
1F
100
AcDbEntity
  8
0
100
AcDbBlockBegin
  2
*Model_Space
 70
     0
 10
0.0
 20
0.0
 30
0.0
  3
*Model_Space
  1

  0
ENDBLK
  5
21
330
1F
100
AcDbEntity
  8
0
100
AcDbBlockEnd
  0
BLOCK
  5
1C
330
1B
100
AcDbEntity
 67
     1
  8
0
100
AcDbBlockBegin
  2
*Paper_Space
 70
     0
 10
0.0
 20
0.0
 30
0.0
  3
*Paper_Space
  1

  0
ENDBLK
  5
1D
330
1B
100
AcDbEntity
 67
     1
  8
0
100
AcDbBlockEnd
  0
BLOCK
  5
24
330
23
100
AcDbEntity
  8
0
100
AcDbBlockBegin
  2
*Paper_Space0
 70
     0
 10
0.0
 20
0.0
 30
0.0
  3
*Paper_Space0
  1

  0
ENDBLK
  5
25
330
23
100
AcDbEntity
  8
0
100
AcDbBlockEnd
  0
BLOCK
  5
89
330
88
100
AcDbEntity
  8
0
100
AcDbBlockBegin
  2
SW_CENTERMARKSYMBOL_0
 70
     0
 10
0.0
 20
0.0
 30
0.0
  3
SW_CENTERMARKSYMBOL_0
  1

  0
LINE
  5
8B
330
88
100
AcDbEntity
  8
FORMAT
 62
     0
100
AcDbLine
 10
0.0
 20
0.0
 30
0.0
 11
0.0
 21
2.5
 31
0.0
  0
LINE
  5
8C
330
88
100
AcDbEntity
  8
FORMAT
 62
     0
100
AcDbLine
 10
0.0
 20
0.0
 30
0.0
 11
-2.5
 21
0.0
 31
0.0
  0
LINE
  5
8D
330
88
100
AcDbEntity
  8
FORMAT
 62
     0
100
AcDbLine
 10
0.0
 20
0.0
 30
0.0
 11
0.0
 21
-2.5
 31
0.0
  0
LINE
  5
8E
330
88
100
AcDbEntity
  8
FORMAT
 62
     0
100
AcDbLine
 10
0.0
 20
0.0
 30
0.0
 11
2.5
 21
0.0
 31
0.0
  0
LINE
  5
8F
330
88
100
AcDbEntity
  8
FORMAT
 62
     0
100
AcDbLine
 10
0.0
 20
5.0
 30
0.0
 11
0.0
 21
102.5
 31
0.0
  0
LINE
  5
90
330
88
100
AcDbEntity
  8
FORMAT
 62
     0
100
AcDbLine
 10
-5.0
 20
0.0
 30
0.0
 11
-102.5
 21
0.0
 31
0.0
  0
LINE
  5
91
330
88
100
AcDbEntity
  8
FORMAT
 62
     0
100
AcDbLine
 10
0.0
 20
-5.0
 30
0.0
 11
0.0
 21
-102.5
 31
0.0
  0
LINE
  5
92
330
88
100
AcDbEntity
  8
FORMAT
 62
     0
100
AcDbLine
 10
5.0
 20
0.0
 30
0.0
 11
102.5
 21
0.0
 31
0.0
  0
ENDBLK
  5
8A
330
88
100
AcDbEntity
  8
0
100
AcDbBlockEnd
  0
BLOCK
  5
BC
330
BB
100
AcDbEntity
  8
0
100
AcDbBlockBegin
  2
SW_CENTERMARKSYMBOL_1
 70
     0
 10
0.0
 20
0.0
 30
0.0
  3
SW_CENTERMARKSYMBOL_1
  1

  0
LINE
  5
BE
330
BB
100
AcDbEntity
  8
FORMAT
 62
     0
100
AcDbLine
 10
0.0
 20
0.0
 30
0.0
 11
0.0
 21
2.5
 31
0.0
  0
LINE
  5
BF
330
BB
100
AcDbEntity
  8
FORMAT
 62
     0
100
AcDbLine
 10
0.0
 20
0.0
 30
0.0
 11
-2.5
 21
0.0
 31
0.0
  0
LINE
  5
C0
330
BB
100
AcDbEntity
  8
FORMAT
 62
     0
100
AcDbLine
 10
0.0
 20
0.0
 30
0.0
 11
0.0
 21
-2.5
 31
0.0
  0
LINE
  5
C1
330
BB
100
AcDbEntity
  8
FORMAT
 62
     0
100
AcDbLine
 10
0.0
 20
0.0
 30
0.0
 11
2.5
 21
0.0
 31
0.0
  0
LINE
  5
C2
330
BB
100
AcDbEntity
  8
FORMAT
 62
     0
100
AcDbLine
 10
0.0
 20
5.0
 30
0.0
 11
0.0
 21
102.5
 31
0.0
  0
LINE
  5
C3
330
BB
100
AcDbEntity
  8
FORMAT
 62
     0
100
AcDbLine
 10
-5.0
 20
0.0
 30
0.0
 11
-102.5
 21
0.0
 31
0.0
  0
LINE
  5
C4
330
BB
100
AcDbEntity
  8
FORMAT
 62
     0
100
AcDbLine
 10
0.0
 20
-5.0
 30
0.0
 11
0.0
 21
-102.5
 31
0.0
  0
LINE
  5
C5
330
BB
100
AcDbEntity
  8
FORMAT
 62
     0
100
AcDbLine
 10
5.0
 20
0.0
 30
0.0
 11
102.5
 21
0.0
 31
0.0
  0
ENDBLK
  5
BD
330
BB
100
AcDbEntity
  8
0
100
AcDbBlockEnd
  0
ENDSEC
  0
SECTION
  2
ENTITIES
  0
LINE
  5
83
330
1F
100
AcDbEntity
  8
0
  6
Continuous
 62
     7
370
    25
100
AcDbLine
 10
92.8583123737
 20
17.7096504399
 30
0.0
 11
328.8583123737
 21
17.7096504399
 31
0.0
  0
LINE
  5
84
330
1F
100
AcDbEntity
  8
0
  6
Continuous
 62
     7
370
    25
100
AcDbLine
 10
328.8583123737
 20
217.7096504399
 30
0.0
 11
92.8583123737
 21
217.7096504399
 31
0.0
  0
CIRCLE
  5
85
330
1F
100
AcDbEntity
  8
0
  6
Continuous
 62
     7
370
    25
100
AcDbCircle
 10
92.8583123737
 20
117.7096504399
 30
0.0
 40
88.10000000000002
  0
CIRCLE
  5
86
330
1F
100
AcDbEntity
  8
0
  6
Continuous
 62
     7
370
    25
100
AcDbCircle
 10
92.8583123737
 20
117.7096504399
 30
0.0
 40
100.0
  0
LINE
  5
87
330
1F
100
AcDbEntity
  8
0
  6
Continuous
 62
     7
370
    25
100
AcDbLine
 10
328.8583123737
 20
217.7096504399
 30
0.0
 11
328.8583123737
 21
17.7096504399
 31
0.0
  0
INSERT
  5
93
330
1F
100
AcDbEntity
  8
FORMAT
100
AcDbBlockReference
  2
SW_CENTERMARKSYMBOL_0
 10
92.8583123737
 20
117.7096504399
 30
0.0
  0
LINE
  5
94
330
1F
100
AcDbEntity
  8
0
  6
Continuous
 62
     7
370
    25
100
AcDbLine
 10
192.8583123737
 20
642.6615213314
 30
0.0
 11
192.8583123737
 21
783.1615213314
 31
0.0
  0
LINE
  5
95
330
1F
100
AcDbEntity
  8
0
  6
Continuous
 62
     7
370
    25
100
AcDbLine
 10
192.8583123737
 20
302.1615213314
 30
0.0
 11
192.8583123737
 21
442.6615213314
 31
0.0
  0
LINE
  5
96
330
1F
100
AcDbEntity
  8
0
  6
Continuous
 62
     7
370
    25
100
AcDbLine
 10
-7.1416876263
 20
783.1615213314
 30
0.0
 11
-7.1416876263
 21
302.1615213314
 31
0.0
  0
LINE
  5
97
330
1F
100
AcDbEntity
  8
0
  6
Continuous
 62
     7
370
    25
100
AcDbLine
 10
192.8583123737
 20
442.6615213314
 30
0.0
 11
328.8583123737
 21
442.6615213314
 31
0.0
  0
LINE
  5
98
330
1F
100
AcDbEntity
  8
0
  6
Continuous
 62
     7
370
    25
100
AcDbLine
 10
328.8583123737
 20
642.6615213314
 30
0.0
 11
192.8583123737
 21
642.6615213314
 31
0.0
  0
LINE
  5
99
330
1F
100
AcDbEntity
  8
0
  6
Continuous
 62
     7
370
    25
100
AcDbLine
 10
192.8583123737
 20
642.6615213314
 30
0.0
 11
92.8583123737
 21
542.6615213314
 31
0.0
  0
LINE
  5
9A
330
1F
100
AcDbEntity
  8
0
  6
Continuous
 62
     7
370
    25
100
AcDbLine
 10
92.8583123737
 20
542.6615213314
 30
0.0
 11
192.8583123737
 21
442.6615213314
 31
0.0
  0
LINE
  5
9B
330
1F
100
AcDbEntity
  8
0
  6
Continuous
 62
     7
370
    25
100
AcDbLine
 10
-7.1416876263
 20
783.1615213314
 30
0.0
 11
192.8583123737
 21
783.1615213314
 31
0.0
  0
LINE
  5
9C
330
1F
100
AcDbEntity
  8
0
  6
Continuous
 62
     7
370
    25
100
AcDbLine
 10
-7.1416876263
 20
302.1615213314
 30
0.0
 11
192.8583123737
 21
302.1615213314
 31
0.0
  0
LINE
  5
9D
330
1F
100
AcDbEntity
  8
0
  6
Continuous
 62
     7
370
    25
100
AcDbLine
 10
328.8583123737
 20
642.6615213314
 30
0.0
 11
328.8583123737
 21
442.6615213314
 31
0.0
  0
LINE
  5
9E
330
1F
100
AcDbEntity
  8
0
  6
Continuous
 62
     7
370
    25
100
AcDbLine
 10
658.0510215544
 20
17.7096504399
 30
0.0
 11
898.5510215544
 21
17.7096504399
 31
0.0
  0
LINE
  5
9F
330
1F
100
AcDbEntity
  8
0
  6
Continuous
 62
     7
370
    25
100
AcDbLine
 10
417.5510215544
 20
17.7096504399
 30
0.0
 11
658.0510215544
 21
17.7096504399
 31
0.0
  0
LINE
  5
A0
330
1F
100
AcDbEntity
  8
0
  6
Continuous
 62
     7
370
    25
100
AcDbLine
 10
658.0510215544
 20
217.7096504399
 30
0.0
 11
417.5510215544
 21
217.7096504399
 31
0.0
  0
LINE
  5
A1
330
1F
100
AcDbEntity
  8
0
  6
Continuous
 62
     7
370
    25
100
AcDbLine
 10
898.5510215544
 20
217.7096504399
 30
0.0
 11
658.0510215544
 21
217.7096504399
 31
0.0
  0
LINE
  5
A2
330
1F
100
AcDbEntity
  8
0
  6
Continuous
 62
     7
370
    25
100
AcDbLine
 10
898.5510215544
 20
217.7096504399
 30
0.0
 11
898.5510215544
 21
17.7096504399
 31
0.0
  0
LINE
  5
A3
330
1F
100
AcDbEntity
  8
0
  6
Continuous
 62
     7
370
    25
100
AcDbLine
 10
417.5510215544
 20
217.7096504399
 30
0.0
 11
417.5510215544
 21
17.7096504399
 31
0.0
  0
LINE
  5
A4
330
1F
100
AcDbEntity
  8
0
  6
Continuous
 62
     7
370
    25
100
AcDbLine
 10
664.1484908539
 20
-222.7465717579
 30
0.0
 11
544.0852466103
 21
-153.4355361829
 31
0.0
  0
LINE
  5
A5
330
1F
100
AcDbEntity
  8
0
  6
Continuous
 62
     7
370
    25
100
AcDbLine
 10
884.203608361
 20
-349.7816870763
 30
0.0
 11
864.1647456476
 21
-338.2134978677
 31
0.0
  0
LINE
  5
A6
330
1F
100
AcDbEntity
  8
0
  6
Continuous
 62
     7
370
    25
100
AcDbLine
 10
444.0933733467
 20
-326.6453086591
 30
0.0
 11
784.2117350974
 21
-522.9914595524
 31
0.0
  0
LINE
  5
A7
330
1F
100
AcDbEntity
  8
0
  6
Continuous
 62
     7
370
    25
100
AcDbLine
 10
764.1403641175
 20
-395.956344234
 30
0.0
 11
881.0216278457
 21
-328.4822269107
 31
0.0
  0
LINE
  5
A8
330
1F
100
AcDbEntity
  8
0
  6
Continuous
 62
     7
370
    25
100
AcDbLine
 10
781.0297545821
 20
-155.2724544345
 30
0.0
 11
664.1484908539
 21
-222.7465717579
 31
0.0
  0
LINE
  5
A9
330
1F
100
AcDbEntity
  8
0
  6
Continuous
 62
     7
370
    25
100
AcDbLine
 10
664.1484908539
 20
-222.7465717579
 30
0.0
 11
664.1484908539
 21
-419.8675790563
 31
0.0
  0
ELLIPSE
  5
AA
330
1F
100
AcDbEntity
  8
0
  6
Continuous
 62
     7
370
    25
100
AcDbEllipse
 10
664.1484908539
 20
-338.2134978677
 30
0.0
 11
141.4213562373095
 21
2.273736754432321E-13
 31
0.0
210
0.0
220
0.0
230
1.0
 40
0.5773815452
 41
4.712388980384697
 42
5.49770587972005
  0
LWPOLYLINE
  5
AB
330
1F
100
AcDbEntity
  8
0
  6
Continuous
 62
     7
370
    25
100
AcDbPolyline
 90
      107
 70
   128
 43
0.0
 10
564.7999880972
 20
-199.2200168299
 10
564.6758011793
 20
-194.4544693719
 10
564.3036766366
 20
-189.8490442366
 10
563.6849215703
 20
-185.4199181477
 10
562.82170938
 20
-181.1826485721
 10
561.71707213
 20
-177.1521190738
 10
560.3748898991
 20
-173.3424870347
 10
558.7998771511
 20
-169.7671339261
 10
556.9975661758
 20
-166.4386183064
 10
554.9742876563
 20
-163.3686317079
 10
552.7371484322
 20
-160.5679575707
 10
550.2940065365
 20
-158.0464333647
 10
547.6534435943
 20
-155.8129160357
 10
544.8247346792
 20
-153.8752508948
 10
541.8178157344
 20
-152.2402440614
 10
538.6432486725
 20
-150.9136385567
 10
535.3121842759
 20
-149.9000941309
 10
531.83632303
 20
-149.2031708958
 10
528.227874024
 20
-148.8253168196
 10
524.4995120667
 20
-148.7678591286
 10
520.6643331655
 20
-149.0309996449
 10
516.7358085261
 20
-149.613814078
 10
512.7277372346
 20
-150.5142552709
 10
508.6541977876
 20
-151.7291603911
 10
504.529498641
 20
-153.2542620399
 10
500.3681279509
 20
-155.0842032423
 10
496.1847026837
 20
-157.2125562631
 10
491.9939172733
 20
-159.6318451845
 10
487.8104920061
 20
-162.3335721662
 10
483.649121316
 20
-165.3082472934
 10
479.5244221694
 20
-168.5454219113
 10
475.4508827224
 20
-172.033725326
 10
471.4428114309
 20
-175.7609047446
 10
467.5142867915
 20
-179.7138683134
 10
463.6791078903
 20
-183.8787311037
 10
459.950745933
 20
-188.240863883
 10
456.342296927
 20
-192.7849445009
 10
452.8664356811
 20
-197.4950117084
 10
449.5353712845
 20
-202.3545212228
 10
446.3608042226
 20
-207.3464038396
 10
443.3538852778
 20
-212.4531253891
 10
440.5251763628
 20
-217.6567483255
 10
437.8846134205
 20
-222.9389947335
 10
435.4414715249
 20
-228.28131053
 10
433.2043323007
 20
-233.6649306359
 10
431.1810537812
 20
-239.0709448892
 10
429.3787428059
 20
-244.4803644677
 10
427.803730058
 20
-249.8741885879
 10
426.461547827
 20
-255.2334712457
 10
425.356910577
 20
-260.5393877654
 10
424.4936983867
 20
-265.7733009217
 10
423.8749433204
 20
-270.9168264038
 10
423.5028187778
 20
-275.9518973907
 10
423.3786318598
 20
-280.8608280121
 10
423.5028187778
 20
-285.6263754701
 10
423.8749433204
 20
-290.2318006055
 10
424.4936983867
 20
-294.6609266944
 10
425.356910577
 20
-298.8981962699
 10
426.461547827
 20
-302.9287257682
 10
427.803730058
 20
-306.7383578074
 10
429.3787428059
 20
-310.3137109159
 10
431.1810537812
 20
-313.6422265357
 10
433.2043323007
 20
-316.7122131341
 10
435.4414715249
 20
-319.5128872714
 10
437.8846134205
 20
-322.0344114773
 10
440.5251763628
 20
-324.2679288063
 10
443.3538852778
 20
-326.2055939472
 10
446.3608042226
 20
-327.8406007806
 10
449.5353712845
 20
-329.1672062853
 10
452.8664356811
 20
-330.1807507111
 10
456.342296927
 20
-330.8776739462
 10
459.950745933
 20
-331.2555280224
 10
463.6791078903
 20
-331.3129857135
 10
467.5142867915
 20
-331.0498451971
 10
471.4428114309
 20
-330.467030764
 10
475.4508827224
 20
-329.5665895711
 10
479.5244221694
 20
-328.351684451
 10
483.649121316
 20
-326.8265828021
 10
487.8104920061
 20
-324.9966415997
 10
491.9939172733
 20
-322.868288579
 10
496.1847026837
 20
-320.4489996575
 10
500.3681279509
 20
-317.7472726759
 10
504.529498641
 20
-314.7725975487
 10
508.6541977876
 20
-311.5354229307
 10
512.7277372346
 20
-308.047119516
 10
516.7358085261
 20
-304.3199400974
 10
520.6643331655
 20
-300.3669765286
 10
524.4995120667
 20
-296.2021137383
 10
528.227874024
 20
-291.839980959
 10
531.83632303
 20
-287.2959003411
 10
535.3121842759
 20
-282.5858331336
 10
538.6432486725
 20
-277.7263236192
 10
541.8178157344
 20
-272.7344410024
 10
544.8247346792
 20
-267.627719453
 10
547.6534435943
 20
-262.4240965166
 10
550.2940065365
 20
-257.1418501085
 10
552.7371484322
 20
-251.799534312
 10
554.9742876563
 20
-246.4159142061
 10
556.9975661758
 20
-241.0098999528
 10
558.7998771511
 20
-235.6004803743
 10
560.3748898991
 20
-230.2066562542
 10
561.71707213
 20
-224.8473735963
 10
562.82170938
 20
-219.5414570766
 10
563.6849215703
 20
-214.3075439203
 10
564.3036766366
 20
-209.1640184383
 10
564.6758011793
 20
-204.1289474513
 10
564.7999880972
 20
-199.2200168299
  0
LWPOLYLINE
  5
AC
330
1F
100
AcDbEntity
  8
0
  6
Continuous
 62
     7
370
    25
100
AcDbPolyline
 90
       15
 70
   128
 43
0.0
 10
904.9183498479
 20
-395.5661677232
 10
904.79416293
 20
-390.8006202653
 10
904.4220383874
 20
-386.1951951299
 10
903.803283321
 20
-381.766069041
 10
902.9400711307
 20
-377.5287994655
 10
901.8354338808
 20
-373.4982699672
 10
900.4932516498
 20
-369.688637928
 10
898.9182389018
 20
-366.1132848195
 10
897.1159279265
 20
-362.7847691997
 10
895.092649407
 20
-359.7147826013
 10
892.8555101829
 20
-356.914108464
 10
890.4123682872
 20
-354.3925842581
 10
887.771805345
 20
-352.1590669291
 10
884.9430964299
 20
-350.2214017881
 10
884.203608361
 20
-349.7816870763
  0
LWPOLYLINE
  5
AD
330
1F
100
AcDbEntity
  8
0
  6
Continuous
 62
     7
370
    25
100
AcDbPolyline
 90
       41
 70
   128
 43
0.0
 10
784.2117350974
 20
-522.9914595524
 10
786.4791659733
 20
-524.186751674
 10
789.6537330353
 20
-525.5133571787
 10
792.9847974318
 20
-526.5269016045
 10
796.4606586778
 20
-527.2238248396
 10
800.0691076837
 20
-527.6016789158
 10
803.797469641
 20
-527.6591366068
 10
807.6326485422
 20
-527.3959960905
 10
811.5611731816
 20
-526.8131816574
 10
815.5692444731
 20
-525.9127404645
 10
819.6427839201
 20
-524.6978353443
 10
823.7674830667
 20
-523.1727336955
 10
827.9288537568
 20
-521.3427924931
 10
832.112279024
 20
-519.2144394723
 10
836.3030644345
 20
-516.7951505509
 10
840.4864897017
 20
-514.0934235692
 10
844.6478603917
 20
-511.118748442
 10
848.7725595384
 20
-507.8815738241
 10
852.8460989854
 20
-504.3932704093
 10
856.8541702768
 20
-500.6660909908
 10
860.7826949162
 20
-496.713127422
 10
864.6178738174
 20
-492.5482646317
 10
868.3462357747
 20
-488.1861318524
 10
871.9546847807
 20
-483.6420512345
 10
875.4305460267
 20
-478.9319840269
 10
878.7616104232
 20
-474.0724745126
 10
881.9361774852
 20
-469.0805918958
 10
884.9430964299
 20
-463.9738703463
 10
887.771805345
 20
-458.7702474099
 10
890.4123682872
 20
-453.4880010019
 10
892.8555101829
 20
-448.1456852054
 10
895.092649407
 20
-442.7620650995
 10
897.1159279265
 20
-437.3560508462
 10
898.9182389018
 20
-431.9466312677
 10
900.4932516498
 20
-426.5528071475
 10
901.8354338808
 20
-421.1935244897
 10
902.9400711307
 20
-415.88760797
 10
903.803283321
 20
-410.6536948137
 10
904.4220383874
 20
-405.5101693316
 10
904.79416293
 20
-400.4750983446
 10
904.9183498479
 20
-395.5661677232
  0
LWPOLYLINE
  5
AE
330
1F
100
AcDbEntity
  8
0
  6
Continuous
 62
     7
370
    25
100
AcDbPolyline
 90
      100
 70
   128
 43
0.0
 10
556.385417401
 20
-204.0776450952
 10
556.2599951823
 20
-199.5875077203
 10
555.8842335569
 20
-195.2602599553
 10
555.2596455845
 20
-191.1133260997
 10
554.3887462602
 20
-187.1634043924
 10
553.2750423883
 20
-183.4263997741
 10
551.9230184613
 20
-179.9173598435
 10
550.3381186023
 20
-176.6504142658
 10
548.5267246436
 20
-173.6387178778
 10
546.4961304293
 20
-170.894397718
 10
544.2545124458
 20
-168.428504195
 10
541.8108968975
 20
-166.2509665916
 10
539.1751233616
 20
-164.3705530834
 10
536.3578051681
 20
-162.7948354318
 10
533.3702866628
 20
-161.5301584957
 10
530.2245975283
 20
-160.5816146827
 10
526.9334043447
 20
-159.9530234439
 10
523.5099595851
 20
-159.6469158945
 10
519.9680482534
 20
-159.6645246215
 10
516.3219323764
 20
-160.0057787207
 10
512.5862935759
 20
-160.6693040824
 10
508.7761739508
 20
-161.6524289241
 10
504.9069155082
 20
-162.9511945491
 10
500.9940983861
 20
-164.5603712865
 10
497.053478118
 20
-166.4734795497
 10
493.1009221911
 20
-168.6828159268
 10
489.1523461529
 20
-171.1794842
 10
485.2236495256
 20
-173.9534311674
 10
481.3306517839
 20
-176.9934871236
 10
477.4890286556
 20
-180.2874108362
 10
473.7142490012
 20
-183.821938837
 10
470.0215125262
 20
-187.5828388292
 10
466.4256885769
 20
-191.554966996
 10
462.9412562672
 20
-195.7223289791
 10
459.5822461764
 20
-200.0681442828
 10
456.3621838524
 20
-204.5749138425
 10
453.2940353498
 20
-209.2244904879
 10
450.3901550197
 20
-213.998152015
 10
447.6622357633
 20
-218.8766765735
 10
445.1212619486
 20
-223.8404200669
 10
442.7774651803
 20
-228.8693952522
 10
440.6402831009
 20
-233.9433522211
 10
438.7183213881
 20
-239.0418599397
 10
437.0193191036
 20
-244.144388517
 10
435.5501175299
 20
-249.2303918714
 10
434.316632623
 20
-254.2793904623
 10
433.3238311915
 20
-259.2710537544
 10
432.5757108963
 20
-264.1852820815
 10
432.0752841538
 20
-269.0022875806
 10
431.8245660057
 20
-273.7026738705
 10
431.8245660057
 20
-278.2675141548
 10
432.0752841538
 20
-282.6784274326
 10
432.5757108963
 20
-286.9176525131
 10
433.3238311915
 20
-290.968119533
 10
434.316632623
 20
-294.8135186913
 10
435.5501175299
 20
-298.4383659227
 10
437.0193191036
 20
-301.8280652468
 10
438.7183213881
 20
-304.9689675408
 10
440.6402831009
 20
-307.8484254998
 10
442.7774651803
 20
-310.4548445627
 10
445.1212619486
 20
-312.7777296001
 10
447.6622357633
 20
-314.8077271736
 10
450.3901550197
 20
-316.5366631995
 10
453.2940353498
 20
-317.9575758626
 10
456.3621838524
 20
-319.0647436493
 10
459.5822461764
 20
-319.8537083855
 10
462.9412562672
 20
-320.3212931887
 10
466.4256885769
 20
-320.46561526
 10
470.0215125262
 20
-320.2860934652
 10
473.7142490012
 20
-319.7834506754
 10
477.4890286556
 20
-318.9597108556
 10
481.3306517839
 20
-317.8181909154
 10
485.2236495256
 20
-316.3634873526
 10
489.1523461529
 20
-314.6014577451
 10
493.1009221911
 20
-312.5391971642
 10
497.053478118
 20
-310.1850096054
 10
500.9940983861
 20
-307.548374551
 10
504.9069155082
 20
-304.6399088
 10
508.7761739508
 20
-301.4713237173
 10
512.5862935759
 20
-298.0553780768
 10
516.3219323764
 20
-294.4058266858
 10
519.9680482534
 20
-290.5373649998
 10
523.5099595851
 20
-286.4655699486
 10
526.9334043447
 20
-282.2068372138
 10
530.2245975283
 20
-277.778315209
 10
533.3702866628
 20
-273.1978360292
 10
536.3578051681
 20
-268.4838436476
 10
539.1751233616
 20
-263.6553196477
 10
541.8108968975
 20
-258.7317067913
 10
544.2545124458
 20
-253.7328307297
 10
546.4961304293
 20
-248.6788201726
 10
548.5267246436
 20
-243.5900258365
 10
550.3381186023
 20
-238.4869385003
 10
551.9230184613
 20
-233.3901064956
 10
553.2750423883
 20
-228.3200529659
 10
554.3887462602
 20
-223.2971932274
 10
555.2596455845
 20
-218.3417525634
 10
555.8842335569
 20
-213.4736847845
 10
556.2599951823
 20
-208.7125918816
 10
556.385417401
 20
-204.0776450952
  0
LWPOLYLINE
  5
AF
330
1F
100
AcDbEntity
  8
0
  6
Continuous
 62
     7
370
    25
100
AcDbPolyline
 90
      107
 70
   128
 43
0.0
 10
901.7363693325
 20
-282.6977462637
 10
901.6121824146
 20
-277.7888156423
 10
901.240057872
 20
-272.7537446554
 10
900.6213028057
 20
-267.6102191733
 10
899.7580906154
 20
-262.376306017
 10
898.6534533654
 20
-257.0703894973
 10
897.3112711344
 20
-251.7111068395
 10
895.7362583865
 20
-246.3172827193
 10
893.9339474112
 20
-240.9078631408
 10
891.9106688917
 20
-235.5018488875
 10
889.6735296675
 20
-230.1182287816
 10
887.2303877719
 20
-224.7759129851
 10
884.5898248296
 20
-219.4936665771
 10
881.7611159146
 20
-214.2900436407
 10
878.7541969698
 20
-209.1833220912
 10
875.5796299079
 20
-204.1914394744
 10
872.2485655113
 20
-199.33192996
 10
868.7727042654
 20
-194.6218627525
 10
865.1642552594
 20
-190.0777821346
 10
861.4358933021
 20
-185.7156493553
 10
857.6007144009
 20
-181.550786565
 10
853.6721897615
 20
-177.5978229962
 10
849.66411847
 20
-173.8706435776
 10
845.590579023
 20
-170.3823401629
 10
841.4658798764
 20
-167.145165545
 10
837.3045091863
 20
-164.1704904178
 10
833.1210839191
 20
-161.4687634361
 10
828.9302985086
 20
-159.0494745147
 10
824.7468732415
 20
-156.9211214939
 10
820.5855025514
 20
-155.0911802915
 10
816.4608034048
 20
-153.5660786427
 10
812.3872639578
 20
-152.3511735225
 10
808.3791926663
 20
-151.4507323296
 10
804.4506680269
 20
-150.8679178965
 10
800.6154891257
 20
-150.6047773802
 10
796.8871271684
 20
-150.6622350712
 10
793.2786781624
 20
-151.0400891474
 10
789.8028169164
 20
-151.7370123825
 10
786.4717525199
 20
-152.7505568083
 10
783.297185458
 20
-154.077162313
 10
780.2902665132
 20
-155.7121691464
 10
777.4615575981
 20
-157.6498342873
 10
774.8209946559
 20
-159.8833516163
 10
772.3778527602
 20
-162.4048758223
 10
770.1407135361
 20
-165.2055499595
 10
768.1174350166
 20
-168.275536558
 10
766.3151240413
 20
-171.6040521777
 10
764.7401112933
 20
-175.1794052863
 10
763.3979290624
 20
-178.9890373254
 10
762.2932918124
 20
-183.0195668237
 10
761.4300796221
 20
-187.2568363993
 10
760.8113245558
 20
-191.6859624882
 10
760.4392000131
 20
-196.2913876235
 10
760.3150130952
 20
-201.0569350815
 10
760.4392000131
 20
-205.9658657029
 10
760.8113245558
 20
-211.0009366899
 10
761.4300796221
 20
-216.1444621719
 10
762.2932918124
 20
-221.3783753282
 10
763.3979290624
 20
-226.684291848
 10
764.7401112933
 20
-232.0435745058
 10
766.3151240413
 20
-237.4373986259
 10
768.1174350166
 20
-242.8468182044
 10
770.1407135361
 20
-248.2528324577
 10
772.3778527602
 20
-253.6364525636
 10
774.8209946559
 20
-258.9787683601
 10
777.4615575981
 20
-264.2610147682
 10
780.2902665132
 20
-269.4646377046
 10
783.297185458
 20
-274.571359254
 10
786.4717525199
 20
-279.5632418708
 10
789.8028169164
 20
-284.4227513852
 10
793.2786781624
 20
-289.1328185927
 10
796.8871271684
 20
-293.6768992106
 10
800.6154891257
 20
-298.0390319899
 10
804.4506680269
 20
-302.2038947802
 10
808.3791926663
 20
-306.156858349
 10
812.3872639578
 20
-309.8840377676
 10
816.4608034048
 20
-313.3723411823
 10
820.5855025514
 20
-316.6095158003
 10
824.7468732415
 20
-319.5841909275
 10
828.9302985086
 20
-322.2859179091
 10
833.1210839191
 20
-324.7052068306
 10
837.3045091863
 20
-326.8335598513
 10
841.4658798764
 20
-328.6635010537
 10
845.590579023
 20
-330.1886027026
 10
849.66411847
 20
-331.4035078227
 10
853.6721897615
 20
-332.3039490156
 10
857.6007144009
 20
-332.8867634487
 10
861.4358933021
 20
-333.1499039651
 10
865.1642552594
 20
-333.092446274
 10
868.7727042654
 20
-332.7145921978
 10
872.2485655113
 20
-332.0176689627
 10
875.5796299079
 20
-331.0041245369
 10
878.7541969698
 20
-329.6775190322
 10
881.7611159146
 20
-328.0425121988
 10
884.5898248296
 20
-326.1048470579
 10
887.2303877719
 20
-323.8713297289
 10
889.6735296675
 20
-321.349805523
 10
891.9106688917
 20
-318.5491313857
 10
893.9339474112
 20
-315.4791447873
 10
895.7362583865
 20
-312.1506291675
 10
897.3112711344
 20
-308.575276059
 10
898.6534533654
 20
-304.7656440198
 10
899.7580906154
 20
-300.7351145215
 10
900.6213028057
 20
-296.497844946
 10
901.240057872
 20
-292.0687188571
 10
901.6121824146
 20
-287.4632937217
 10
901.7363693325
 20
-282.6977462637
  0
LWPOLYLINE
  5
B0
330
1F
100
AcDbEntity
  8
0
  6
Continuous
 62
     7
370
    25
100
AcDbPolyline
 90
      100
 70
   128
 43
0.0
 10
893.3217986364
 20
-277.8401179984
 10
893.1963764176
 20
-273.2051712121
 10
892.8206147923
 20
-268.4440783091
 10
892.1960268198
 20
-263.5760105302
 10
891.3251274956
 20
-258.6205698662
 10
890.2114236237
 20
-253.5977101277
 10
888.8593996967
 20
-248.527656598
 10
887.2744998377
 20
-243.4308245933
 10
885.4631058789
 20
-238.3277372571
 10
883.4325116647
 20
-233.2389429211
 10
881.1908936812
 20
-228.1849323639
 10
878.7472781329
 20
-223.1860563023
 10
876.111504597
 20
-218.262443446
 10
873.2941864035
 20
-213.433919446
 10
870.3066678982
 20
-208.7199270644
 10
867.1609787637
 20
-204.1394478847
 10
863.8697855801
 20
-199.7109258798
 10
860.4463408205
 20
-195.452193145
 10
856.9044294888
 20
-191.3803980938
 10
853.2583136118
 20
-187.5119364078
 10
849.5226748113
 20
-183.8623850169
 10
845.7125551862
 20
-180.4464393763
 10
841.8432967436
 20
-177.2778542936
 10
837.9304796214
 20
-174.3693885426
 10
833.9898593534
 20
-171.7327534883
 10
830.0373034265
 20
-169.3785659295
 10
826.0887273883
 20
-167.3163053485
 10
822.160030761
 20
-165.554275741
 10
818.2670330193
 20
-164.0995721782
 10
814.425409891
 20
-162.958052238
 10
810.6506302366
 20
-162.1343124182
 10
806.9578937615
 20
-161.6316696284
 10
803.3620698122
 20
-161.4521478337
 10
799.8776375026
 20
-161.5964699049
 10
796.5186274118
 20
-162.0640547082
 10
793.2985650878
 20
-162.8530194443
 10
790.2304165852
 20
-163.960187231
 10
787.3265362551
 20
-165.3810998942
 10
784.5986169987
 20
-167.1100359201
 10
782.057643184
 20
-169.1400334936
 10
779.7138464157
 20
-171.4629185309
 10
777.5766643363
 20
-174.0693375939
 10
775.6547026235
 20
-176.9487955528
 10
773.955700339
 20
-180.0896978468
 10
772.4864987653
 20
-183.479397171
 10
771.2530138584
 20
-187.1042444024
 10
770.2602124269
 20
-190.9496435606
 10
769.5120921317
 20
-195.0001105806
 10
769.0116653892
 20
-199.239335661
 10
768.7609472411
 20
-203.6502489389
 10
768.7609472411
 20
-208.2150892231
 10
769.0116653892
 20
-212.9154755131
 10
769.5120921317
 20
-217.7324810121
 10
770.2602124269
 20
-222.6467093392
 10
771.2530138584
 20
-227.6383726313
 10
772.4864987653
 20
-232.6873712222
 10
773.955700339
 20
-237.7733745766
 10
775.6547026235
 20
-242.8759031539
 10
777.5766643363
 20
-247.9744108726
 10
779.7138464157
 20
-253.0483678415
 10
782.057643184
 20
-258.0773430267
 10
784.5986169987
 20
-263.0410865201
 10
787.3265362551
 20
-267.9196110786
 10
790.2304165852
 20
-272.6932726057
 10
793.2985650878
 20
-277.3428492511
 10
796.5186274118
 20
-281.8496188109
 10
799.8776375026
 20
-286.1954341145
 10
803.3620698122
 20
-290.3627960976
 10
806.9578937615
 20
-294.3349242644
 10
810.6506302366
 20
-298.0958242567
 10
814.425409891
 20
-301.6303522575
 10
818.2670330193
 20
-304.9242759701
 10
822.160030761
 20
-307.9643319262
 10
826.0887273883
 20
-310.7382788936
 10
830.0373034265
 20
-313.2349471669
 10
833.9898593534
 20
-315.444283544
 10
837.9304796214
 20
-317.3573918071
 10
841.8432967436
 20
-318.9665685445
 10
845.7125551862
 20
-320.2653341695
 10
849.5226748113
 20
-321.2484590112
 10
853.2583136118
 20
-321.9119843729
 10
856.9044294888
 20
-322.2532384721
 10
860.4463408205
 20
-322.2708471991
 10
863.8697855801
 20
-321.9647396497
 10
867.1609787637
 20
-321.336148411
 10
870.3066678982
 20
-320.3876045979
 10
873.2941864035
 20
-319.1229276618
 10
876.111504597
 20
-317.5472100102
 10
878.7472781329
 20
-315.666796502
 10
881.1908936812
 20
-313.4892588987
 10
883.4325116647
 20
-311.0233653757
 10
885.4631058789
 20
-308.2790452158
 10
887.2744998377
 20
-305.2673488278
 10
888.8593996967
 20
-302.0004032501
 10
890.2114236237
 20
-298.4913633195
 10
891.3251274956
 20
-294.7543587012
 10
892.1960268198
 20
-290.8044369939
 10
892.8206147923
 20
-286.6575031383
 10
893.1963764176
 20
-282.3302553733
 10
893.3217986364
 20
-277.8401179984
  0
LINE
  5
B1
330
1F
100
AcDbEntity
  8
0
  6
Continuous
 62
     7
370
    25
100
AcDbLine
 10
-351.393021995
 20
217.7096504399
 30
0.0
 11
-591.893021995
 21
217.7096504399
 31
0.0
  0
LINE
  5
B2
330
1F
100
AcDbEntity
  8
0
  6
Continuous
 62
     7
370
    25
100
AcDbLine
 10
-110.893021995
 20
217.7096504399
 30
0.0
 11
-351.393021995
 21
217.7096504399
 31
0.0
  0
LINE
  5
B3
330
1F
100
AcDbEntity
  8
0
  6
Continuous
 62
     7
370
    25
100
AcDbLine
 10
-351.393021995
 20
17.7096504399
 30
0.0
 11
-110.893021995
 21
17.7096504399
 31
0.0
  0
LINE
  5
B4
330
1F
100
AcDbEntity
  8
0
  6
Continuous
 62
     7
370
    25
100
AcDbLine
 10
-591.893021995
 20
17.7096504399
 30
0.0
 11
-351.393021995
 21
17.7096504399
 31
0.0
  0
CIRCLE
  5
B5
330
1F
100
AcDbEntity
  8
0
  6
Continuous
 62
     7
370
    25
100
AcDbCircle
 10
-351.393021995
 20
117.7096504399
 30
0.0
 40
88.09999999999991
  0
CIRCLE
  5
B6
330
1F
100
AcDbEntity
  8
0
  6
Continuous
 62
     7
370
    25
100
AcDbCircle
 10
-351.393021995
 20
117.7096504399
 30
0.0
 40
99.99999999999994
  0
LINE
  5
B7
330
1F
100
AcDbEntity
  8
0
  6
Continuous
 62
     7
370
    25
100
AcDbLine
 10
-591.893021995
 20
117.7096504399
 30
0.0
 11
-591.893021995
 21
217.7096504399
 31
0.0
  0
LINE
  5
B8
330
1F
100
AcDbEntity
  8
0
  6
Continuous
 62
     7
370
    25
100
AcDbLine
 10
-591.893021995
 20
17.7096504399
 30
0.0
 11
-591.893021995
 21
117.7096504399
 31
0.0
  0
LINE
  5
B9
330
1F
100
AcDbEntity
  8
0
  6
Continuous
 62
     7
370
    25
100
AcDbLine
 10
-110.893021995
 20
117.7096504399
 30
0.0
 11
-110.893021995
 21
217.7096504399
 31
0.0
  0
LINE
  5
BA
330
1F
100
AcDbEntity
  8
0
  6
Continuous
 62
     7
370
    25
100
AcDbLine
 10
-110.893021995
 20
17.7096504399
 30
0.0
 11
-110.893021995
 21
117.7096504399
 31
0.0
  0
INSERT
  5
C6
330
1F
100
AcDbEntity
  8
FORMAT
100
AcDbBlockReference
  2
SW_CENTERMARKSYMBOL_1
 10
-351.393021995
 20
117.7096504399
 30
0.0
  0
LINE
  5
C7
330
1F
100
AcDbEntity
  8
0
  6
Continuous
 62
     7
370
    25
100
AcDbLine
 10
-7.1416876263
 20
-76.4955340758
 30
0.0
 11
-7.1416876263
 21
-557.4955340758
 31
0.0
  0
LINE
  5
C8
330
1F
100
AcDbEntity
  8
0
  6
Continuous
 62
     7
370
    25
100
AcDbLine
 10
192.8583123737
 20
-216.9955340758
 30
0.0
 11
192.8583123737
 21
-76.4955340758
 31
0.0
  0
LINE
  5
C9
330
1F
100
AcDbEntity
  8
0
  6
Continuous
 62
     7
370
    25
100
AcDbLine
 10
192.8583123737
 20
-557.4955340758
 30
0.0
 11
192.8583123737
 21
-416.9955340758
 31
0.0
  0
LINE
  5
CA
330
1F
100
AcDbEntity
  8
0
  6
Continuous
 62
     7
370
    25
100
AcDbLine
 10
192.8583123737
 20
-416.9955340758
 30
0.0
 11
328.8583123737
 21
-416.9955340758
 31
0.0
  0
LINE
  5
CB
330
1F
100
AcDbEntity
  8
0
  6
Continuous
 62
     7
370
    25
100
AcDbLine
 10
328.8583123737
 20
-216.9955340758
 30
0.0
 11
192.8583123737
 21
-216.9955340758
 31
0.0
  0
LINE
  5
CC
330
1F
100
AcDbEntity
  8
0
  6
Continuous
 62
     7
370
    25
100
AcDbLine
 10
92.8583123737
 20
-316.9955340758
 30
0.0
 11
192.8583123737
 21
-416.9955340758
 31
0.0
  0
LINE
  5
CD
330
1F
100
AcDbEntity
  8
0
  6
Continuous
 62
     7
370
    25
100
AcDbLine
 10
192.8583123737
 20
-216.9955340758
 30
0.0
 11
92.8583123737
 21
-316.9955340758
 31
0.0
  0
LINE
  5
CE
330
1F
100
AcDbEntity
  8
0
  6
Continuous
 62
     7
370
    25
100
AcDbLine
 10
192.8583123737
 20
-557.4955340758
 30
0.0
 11
-7.1416876263
 21
-557.4955340758
 31
0.0
  0
LINE
  5
CF
330
1F
100
AcDbEntity
  8
0
  6
Continuous
 62
     7
370
    25
100
AcDbLine
 10
192.8583123737
 20
-76.4955340758
 30
0.0
 11
-7.1416876263
 21
-76.4955340758
 31
0.0
  0
LINE
  5
D0
330
1F
100
AcDbEntity
  8
0
  6
Continuous
 62
     7
370
    25
100
AcDbLine
 10
328.8583123737
 20
-216.9955340758
 30
0.0
 11
328.8583123737
 21
-416.9955340758
 31
0.0
  0
ENDSEC
  0
SECTION
  2
OBJECTS
  0
DICTIONARY
  5
C
330
0
100
AcDbDictionary
281
     1
  3
ACAD_GROUP
350
D
  3
ACAD_LAYOUT
350
1A
  3
ACAD_MLINESTYLE
350
17
  3
ACAD_PLOTSETTINGS
350
19
  3
ACAD_PLOTSTYLENAME
350
E
  3
ACAD_SCALELIST
350
47
  3
DWGPROPS
350
D1
  0
DICTIONARY
  5
D
102
{ACAD_REACTORS
330
C
102
}
330
C
100
AcDbDictionary
281
     1
  0
DICTIONARY
  5
1A
102
{ACAD_REACTORS
330
C
102
}
330
C
100
AcDbDictionary
281
     1
  3
Layout1
350
1E
  3
Layout2
350
26
  3
Model
350
22
  0
DICTIONARY
  5
17
102
{ACAD_REACTORS
330
C
102
}
330
C
100
AcDbDictionary
281
     1
  3
Standard
350
18
  0
DICTIONARY
  5
19
102
{ACAD_REACTORS
330
C
102
}
330
C
100
AcDbDictionary
281
     1
  0
ACDBDICTIONARYWDFLT
  5
E
102
{ACAD_REACTORS
330
C
102
}
330
C
100
AcDbDictionary
281
     1
  3
Normal
350
F
100
AcDbDictionaryWithDefault
340
F
  0
DICTIONARY
  5
47
102
{ACAD_REACTORS
330
C
102
}
330
C
100
AcDbDictionary
281
     1
  3
A0
350
48
  3
A1
350
49
  3
A2
350
4A
  3
A3
350
4B
  3
A4
350
4C
  3
A5
350
4D
  3
A6
350
4E
  3
A7
350
4F
  3
A8
350
50
  3
A9
350
51
  3
B0
350
52
  3
B1
350
53
  3
B2
350
54
  3
B3
350
55
  3
B4
350
56
  3
B5
350
57
  3
B6
350
58
  3
B7
350
59
  3
B8
350
5A
  3
B9
350
5B
  3
C0
350
5C
  3
C1
350
5D
  3
C2
350
5E
  3
C3
350
5F
  3
C4
350
60
  3
C5
350
61
  3
C6
350
62
  3
C7
350
63
  3
C8
350
64
  3
C9
350
65
  3
D0
350
66
  3
D1
350
67
  3
D2
350
68
  0
XRECORD
  5
D1
102
{ACAD_REACTORS
330
C
102
}
330
C
100
AcDbXrecord
280
     1
  1
DWGPROPS COOKIE
  2

  3

  4

  6

  7

  8
b.kav
  9

300
=
301
=
302
=
303
=
304
=
305
=
306
=
307
=
308
=
309
=
 40
0.0
 41
2459935.57555588
 42
2459935.575556065
  1

 90
        0
  0
LAYOUT
  5
1E
102
{ACAD_REACTORS
330
1A
102
}
330
1A
100
AcDbPlotSettings
  1

  2
none_device
  4

  6

 40
0.0
 41
0.0
 42
0.0
 43
0.0
 44
0.0
 45
0.0
 46
0.0
 47
0.0
 48
0.0
 49
0.0
140
0.0
141
0.0
142
1.0
143
1.0
 70
   688
 72
     1
 73
     0
 74
     5
  7

 75
    16
147
1.0
148
0.0
149
0.0
100
AcDbLayout
  1
Layout1
 70
     1
 71
     1
 10
0.0
 20
0.0
 11
420.0
 21
297.0
 12
0.0
 22
0.0
 32
0.0
 14
1.0000000000E+20
 24
1.0000000000E+20
 34
1.0000000000E+20
 15
-1.0000000000E+20
 25
-1.0000000000E+20
 35
-1.0000000000E+20
146
0.0
 13
0.0
 23
0.0
 33
0.0
 16
1.0
 26
0.0
 36
0.0
 17
0.0
 27
1.0
 37
0.0
 76
     0
330
1B
  0
LAYOUT
  5
26
102
{ACAD_REACTORS
330
1A
102
}
330
1A
100
AcDbPlotSettings
  1

  2
none_device
  4

  6

 40
0.0
 41
0.0
 42
0.0
 43
0.0
 44
0.0
 45
0.0
 46
0.0
 47
0.0
 48
0.0
 49
0.0
140
0.0
141
0.0
142
1.0
143
1.0
 70
   688
 72
     1
 73
     0
 74
     5
  7

 75
    16
147
1.0
148
0.0
149
0.0
100
AcDbLayout
  1
Layout2
 70
     1
 71
     2
 10
0.0
 20
0.0
 11
0.0
 21
0.0
 12
0.0
 22
0.0
 32
0.0
 14
0.0
 24
0.0
 34
0.0
 15
0.0
 25
0.0
 35
0.0
146
0.0
 13
0.0
 23
0.0
 33
0.0
 16
1.0
 26
0.0
 36
0.0
 17
0.0
 27
1.0
 37
0.0
 76
     0
330
23
  0
LAYOUT
  5
22
102
{ACAD_REACTORS
330
1A
102
}
330
1A
100
AcDbPlotSettings
  1

  2
none_device
  4
Letter_(8.50_x_11.00_Inches)
  6

 40
6.35
 41
6.35
 42
6.35000508
 43
6.35000508
 44
215.9
 45
279.4
 46
0.0
 47
0.0
 48
0.0
 49
0.0
140
0.0
141
0.0
142
1.0
143
1.0
 70
  1712
 72
     1
 73
     0
 74
     0
  7

 75
     0
147
1.0
148
0.0
149
0.0
100
AcDbLayout
  1
Model
 70
     1
 71
     0
 10
0.0
 20
0.0
 11
279.4
 21
215.9
 12
0.0
 22
0.0
 32
0.0
 14
0.0
 24
0.0
 34
0.0
 15
279.4
 25
215.9
 35
0.0
146
0.0
 13
0.0
 23
0.0
 33
0.0
 16
1.0
 26
0.0
 36
0.0
 17
0.0
 27
1.0
 37
0.0
 76
     0
330
1F
331
29
  0
MLINESTYLE
  5
18
102
{ACAD_REACTORS
330
17
102
}
330
17
100
AcDbMlineStyle
  2
Standard
 70
     0
  3

 62
   256
 51
90.0
 52
90.0
 71
     2
 49
0.5
 62
   256
  6
BYLAYER
 49
-0.5
 62
   256
  6
BYLAYER
  0
ACDBPLACEHOLDER
  5
F
102
{ACAD_REACTORS
330
E
102
}
330
E
  0
SCALE
  5
48
102
{ACAD_REACTORS
330
47
102
}
330
47
100
AcDbScale
 70
     0
300
1:1
140
1.0
141
1.0
290
     1
  0
SCALE
  5
49
102
{ACAD_REACTORS
330
47
102
}
330
47
100
AcDbScale
 70
     0
300
1:2
140
1.0
141
2.0
290
     0
  0
SCALE
  5
4A
102
{ACAD_REACTORS
330
47
102
}
330
47
100
AcDbScale
 70
     0
300
1:4
140
1.0
141
4.0
290
     0
  0
SCALE
  5
4B
102
{ACAD_REACTORS
330
47
102
}
330
47
100
AcDbScale
 70
     0
300
1:5
140
1.0
141
5.0
290
     0
  0
SCALE
  5
4C
102
{ACAD_REACTORS
330
47
102
}
330
47
100
AcDbScale
 70
     0
300
1:8
140
1.0
141
8.0
290
     0
  0
SCALE
  5
4D
102
{ACAD_REACTORS
330
47
102
}
330
47
100
AcDbScale
 70
     0
300
1:10
140
1.0
141
10.0
290
     0
  0
SCALE
  5
4E
102
{ACAD_REACTORS
330
47
102
}
330
47
100
AcDbScale
 70
     0
300
1:16
140
1.0
141
16.0
290
     0
  0
SCALE
  5
4F
102
{ACAD_REACTORS
330
47
102
}
330
47
100
AcDbScale
 70
     0
300
1:20
140
1.0
141
20.0
290
     0
  0
SCALE
  5
50
102
{ACAD_REACTORS
330
47
102
}
330
47
100
AcDbScale
 70
     0
300
1:30
140
1.0
141
30.0
290
     0
  0
SCALE
  5
51
102
{ACAD_REACTORS
330
47
102
}
330
47
100
AcDbScale
 70
     0
300
1:40
140
1.0
141
40.0
290
     0
  0
SCALE
  5
52
102
{ACAD_REACTORS
330
47
102
}
330
47
100
AcDbScale
 70
     0
300
1:50
140
1.0
141
50.0
290
     0
  0
SCALE
  5
53
102
{ACAD_REACTORS
330
47
102
}
330
47
100
AcDbScale
 70
     0
300
1:100
140
1.0
141
100.0
290
     0
  0
SCALE
  5
54
102
{ACAD_REACTORS
330
47
102
}
330
47
100
AcDbScale
 70
     0
300
2:1
140
2.0
141
1.0
290
     0
  0
SCALE
  5
55
102
{ACAD_REACTORS
330
47
102
}
330
47
100
AcDbScale
 70
     0
300
4:1
140
4.0
141
1.0
290
     0
  0
SCALE
  5
56
102
{ACAD_REACTORS
330
47
102
}
330
47
100
AcDbScale
 70
     0
300
8:1
140
8.0
141
1.0
290
     0
  0
SCALE
  5
57
102
{ACAD_REACTORS
330
47
102
}
330
47
100
AcDbScale
 70
     0
300
10:1
140
10.0
141
1.0
290
     0
  0
SCALE
  5
58
102
{ACAD_REACTORS
330
47
102
}
330
47
100
AcDbScale
 70
     0
300
100:1
140
100.0
141
1.0
290
     0
  0
SCALE
  5
59
102
{ACAD_REACTORS
330
47
102
}
330
47
100
AcDbScale
 70
     0
300
1/128" = 1'-0"
140
0.0078125
141
12.0
290
     0
  0
SCALE
  5
5A
102
{ACAD_REACTORS
330
47
102
}
330
47
100
AcDbScale
 70
     0
300
1/64" = 1'-0"
140
0.015625
141
12.0
290
     0
  0
SCALE
  5
5B
102
{ACAD_REACTORS
330
47
102
}
330
47
100
AcDbScale
 70
     0
300
1/32" = 1'-0"
140
0.03125
141
12.0
290
     0
  0
SCALE
  5
5C
102
{ACAD_REACTORS
330
47
102
}
330
47
100
AcDbScale
 70
     0
300
1/16" = 1'-0"
140
0.0625
141
12.0
290
     0
  0
SCALE
  5
5D
102
{ACAD_REACTORS
330
47
102
}
330
47
100
AcDbScale
 70
     0
300
3/32" = 1'-0"
140
0.09375
141
12.0
290
     0
  0
SCALE
  5
5E
102
{ACAD_REACTORS
330
47
102
}
330
47
100
AcDbScale
 70
     0
300
1/8" = 1'-0"
140
0.125
141
12.0
290
     0
  0
SCALE
  5
5F
102
{ACAD_REACTORS
330
47
102
}
330
47
100
AcDbScale
 70
     0
300
3/16" = 1'-0"
140
0.1875
141
12.0
290
     0
  0
SCALE
  5
60
102
{ACAD_REACTORS
330
47
102
}
330
47
100
AcDbScale
 70
     0
300
1/4" = 1'-0"
140
0.25
141
12.0
290
     0
  0
SCALE
  5
61
102
{ACAD_REACTORS
330
47
102
}
330
47
100
AcDbScale
 70
     0
300
3/8" = 1'-0"
140
0.375
141
12.0
290
     0
  0
SCALE
  5
62
102
{ACAD_REACTORS
330
47
102
}
330
47
100
AcDbScale
 70
     0
300
1/2" = 1'-0"
140
0.5
141
12.0
290
     0
  0
SCALE
  5
63
102
{ACAD_REACTORS
330
47
102
}
330
47
100
AcDbScale
 70
     0
300
3/4" = 1'-0"
140
0.75
141
12.0
290
     0
  0
SCALE
  5
64
102
{ACAD_REACTORS
330
47
102
}
330
47
100
AcDbScale
 70
     0
300
1" = 1'-0"
140
1.0
141
12.0
290
     0
  0
SCALE
  5
65
102
{ACAD_REACTORS
330
47
102
}
330
47
100
AcDbScale
 70
     0
300
1-1/2" = 1'-0"
140
1.5
141
12.0
290
     0
  0
SCALE
  5
66
102
{ACAD_REACTORS
330
47
102
}
330
47
100
AcDbScale
 70
     0
300
3" = 1'-0"
140
3.0
141
12.0
290
     0
  0
SCALE
  5
67
102
{ACAD_REACTORS
330
47
102
}
330
47
100
AcDbScale
 70
     0
300
6" = 1'-0"
140
6.0
141
12.0
290
     0
  0
SCALE
  5
68
102
{ACAD_REACTORS
330
47
102
}
330
47
100
AcDbScale
 70
     0
300
1'-0" = 1'-0"
140
12.0
141
12.0
290
     0
  0
ENDSEC
  0
EOF
